ISO-10303-21;
HEADER;
FILE_DESCRIPTION (( 'STEP AP203' ),
    '1' );
FILE_NAME ('QB-CTZHWP-50.8-780-M.STEP',
    '2020-12-24T01:38:25',
    ( '' ),
    ( '' ),
    'SwSTEP 2.0',
    'SolidWorks 2020',
    '' );
FILE_SCHEMA (( 'CONFIG_CONTROL_DESIGN' ));
ENDSEC;

DATA;
#1 = EDGE_CURVE ( 'NONE', #116, #99, #61, .T. ) ;
#2 = PERSON_AND_ORGANIZATION_ROLE ( 'creator' ) ;
#3 = APPROVAL_STATUS ( 'not_yet_approved' ) ;
#4 = LOCAL_TIME ( 9, 38, 25.00000000000000000, #50 ) ;
#5 = EDGE_CURVE ( 'NONE', #99, #116, #55, .T. ) ;
#6 = APPLICATION_CONTEXT ( 'configuration controlled 3d designs of mechanical parts and assemblies' ) ;
#7 =( NAMED_UNIT ( * ) PLANE_ANGLE_UNIT ( ) SI_UNIT ( $, .RADIAN. ) );
#8 = PRODUCT_DEFINITION_FORMATION_WITH_SPECIFIED_SOURCE ( 'ANY', '', #115, .NOT_KNOWN. ) ;
#9 = DIRECTION ( 'NONE',  ( 0.000000000000000000, 0.000000000000000000, 1.000000000000000000 ) ) ;
#10 = LINE ( 'NONE', #117, #92 ) ;
#11 = DIRECTION ( 'NONE',  ( -1.000000000000000000, -0.000000000000000000, -0.000000000000000000 ) ) ;
#12 = PERSON_AND_ORGANIZATION ( #60, #41 ) ;
#13 = PRODUCT_DEFINITION_SHAPE ( 'NONE', 'NONE',  #139 ) ;
#14 = AXIS2_PLACEMENT_3D ( 'NONE', #64, #62, #23 ) ;
#15 = PERSON_AND_ORGANIZATION_ROLE ( 'classification_officer' ) ;
#16 = ADVANCED_BREP_SHAPE_REPRESENTATION ( 'QB-CTZHWP-50.8-780-M', ( #56, #138 ), #30 ) ;
#17 = PERSON_AND_ORGANIZATION ( #60, #41 ) ;
#18 = AXIS2_PLACEMENT_3D ( 'NONE', #94, #27, #79 ) ;
#19 = DATE_AND_TIME ( #120, #82 ) ;
#20 = CC_DESIGN_APPROVAL ( #21, ( #139 ) ) ;
#21 = APPROVAL ( #96, 'UNSPECIFIED' ) ;
#22 = PERSON_AND_ORGANIZATION ( #60, #41 ) ;
#23 = DIRECTION ( 'NONE',  ( 0.000000000000000000, 0.000000000000000000, 1.000000000000000000 ) ) ;
#24 = EDGE_CURVE ( 'NONE', #109, #112, #107, .T. ) ;
#25 = CC_DESIGN_PERSON_AND_ORGANIZATION_ASSIGNMENT ( #81, #53, ( #8 ) ) ;
#26 = CARTESIAN_POINT ( 'NONE',  ( 0.000000000000000000, 0.000000000000000000, 0.000000000000000000 ) ) ;
#27 = DIRECTION ( 'NONE',  ( -1.000000000000000000, -0.000000000000000000, -0.000000000000000000 ) ) ;
#28 = DIRECTION ( 'NONE',  ( 0.000000000000000000, 0.000000000000000000, -1.000000000000000000 ) ) ;
#29 = COORDINATED_UNIVERSAL_TIME_OFFSET ( 8, 0, .AHEAD. ) ;
#30 =( GEOMETRIC_REPRESENTATION_CONTEXT ( 3 ) GLOBAL_UNCERTAINTY_ASSIGNED_CONTEXT ( ( #136 ) ) GLOBAL_UNIT_ASSIGNED_CONTEXT ( ( #77, #7, #98 ) ) REPRESENTATION_CONTEXT ( 'NONE', 'WORKASPACE' ) );
#31 = APPROVAL_DATE_TIME ( #153, #21 ) ;
#32 = CC_DESIGN_DATE_AND_TIME_ASSIGNMENT ( #122, #119, ( #139 ) ) ;
#33 = CC_DESIGN_APPROVAL ( #83, ( #8 ) ) ;
#34 = AXIS2_PLACEMENT_3D ( 'NONE', #146, #11, #63 ) ;
#35 = ORIENTED_EDGE ( 'NONE', *, *, #66, .T. ) ;
#36 = FACE_OUTER_BOUND ( 'NONE', #106, .T. ) ;
#37 = DIRECTION ( 'NONE',  ( -1.000000000000000000, 0.000000000000000000, -0.000000000000000000 ) ) ;
#38 = APPROVAL_DATE_TIME ( #104, #108 ) ;
#39 = PERSON_AND_ORGANIZATION ( #60, #41 ) ;
#40 = SHAPE_DEFINITION_REPRESENTATION ( #13, #16 ) ;
#41 = ORGANIZATION ( 'UNSPECIFIED', 'UNSPECIFIED', '' ) ;
#42 = LOCAL_TIME ( 9, 38, 25.00000000000000000, #110 ) ;
#43 = CARTESIAN_POINT ( 'NONE',  ( 3.000000000000002665, 0.000000000000000000, 0.000000000000000000 ) ) ;
#44 = DIRECTION ( 'NONE',  ( 0.000000000000000000, 0.000000000000000000, 1.000000000000000000 ) ) ;
#45 = PERSON_AND_ORGANIZATION_ROLE ( 'design_owner' ) ;
#46 = DIRECTION ( 'NONE',  ( -1.000000000000000000, -0.000000000000000000, -0.000000000000000000 ) ) ;
#47 = PLANE ( 'NONE',  #152 ) ;
#48 = EDGE_LOOP ( 'NONE', ( #74, #124 ) ) ;
#49 = FACE_OUTER_BOUND ( 'NONE', #58, .T. ) ;
#50 = COORDINATED_UNIVERSAL_TIME_OFFSET ( 8, 0, .AHEAD. ) ;
#51 = PERSON_AND_ORGANIZATION ( #60, #41 ) ;
#52 = CC_DESIGN_PERSON_AND_ORGANIZATION_ASSIGNMENT ( #68, #2, ( #8 ) ) ;
#53 = PERSON_AND_ORGANIZATION_ROLE ( 'design_supplier' ) ;
#54 = CALENDAR_DATE ( 2020, 24, 12 ) ;
#55 = CIRCLE ( 'NONE', #18, 25.39999999999999858 ) ;
#56 = MANIFOLD_SOLID_BREP ( 'Ðý×', #70 ) ;
#57 = ORIENTED_EDGE ( 'NONE', *, *, #24, .F. ) ;
#58 = EDGE_LOOP ( 'NONE', ( #166, #35, #57, #128 ) ) ;
#59 = ADVANCED_FACE ( 'NONE', ( #156 ), #172, .F. ) ;
#60 = PERSON ( 'UNSPECIFIED', 'UNSPECIFIED', 'UNSPECIFIED', ('UNSPECIFIED'), ('UNSPECIFIED'), ('UNSPECIFIED') ) ;
#61 = CIRCLE ( 'NONE', #100, 25.39999999999999858 ) ;
#62 = DIRECTION ( 'NONE',  ( -1.000000000000000000, -0.000000000000000000, -0.000000000000000000 ) ) ;
#63 = DIRECTION ( 'NONE',  ( 0.000000000000000000, 0.000000000000000000, 1.000000000000000000 ) ) ;
#64 = CARTESIAN_POINT ( 'NONE',  ( -3.000000000000000000, 0.000000000000000000, 0.000000000000000000 ) ) ;
#65 = SECURITY_CLASSIFICATION_LEVEL ( 'unclassified' ) ;
#66 = EDGE_CURVE ( 'NONE', #99, #112, #85, .T. ) ;
#67 = AXIS2_PLACEMENT_3D ( 'NONE', #80, #114, #167 ) ;
#68 = PERSON_AND_ORGANIZATION ( #60, #41 ) ;
#69 = PERSON_AND_ORGANIZATION_ROLE ( 'creator' ) ;
#70 = CLOSED_SHELL ( 'NONE', ( #137, #93, #59, #162 ) ) ;
#71 = EDGE_CURVE ( 'NONE', #116, #109, #10, .T. ) ;
#72 = CALENDAR_DATE ( 2020, 24, 12 ) ;
#73 = CC_DESIGN_PERSON_AND_ORGANIZATION_ASSIGNMENT ( #22, #45, ( #115 ) ) ;
#74 = ORIENTED_EDGE ( 'NONE', *, *, #1, .F. ) ;
#75 = APPROVAL_ROLE ( '' ) ;
#76 = CC_DESIGN_APPROVAL ( #108, ( #151 ) ) ;
#77 =( LENGTH_UNIT ( ) NAMED_UNIT ( * ) SI_UNIT ( .MILLI., .METRE. ) );
#78 = DIRECTION ( 'NONE',  ( 1.000000000000000000, 0.000000000000000000, 0.000000000000000000 ) ) ;
#79 = DIRECTION ( 'NONE',  ( 0.000000000000000000, 0.000000000000000000, 1.000000000000000000 ) ) ;
#80 = CARTESIAN_POINT ( 'NONE',  ( -3.000000000000002665, 0.000000000000000000, 0.000000000000000000 ) ) ;
#81 = PERSON_AND_ORGANIZATION ( #60, #41 ) ;
#82 = LOCAL_TIME ( 9, 38, 25.00000000000000000, #102 ) ;
#83 = APPROVAL ( #3, 'UNSPECIFIED' ) ;
#84 = CALENDAR_DATE ( 2020, 24, 12 ) ;
#85 = LINE ( 'NONE', #155, #165 ) ;
#86 = ORIENTED_EDGE ( 'NONE', *, *, #141, .T. ) ;
#87 = LOCAL_TIME ( 9, 38, 25.00000000000000000, #174 ) ;
#88 = CARTESIAN_POINT ( 'NONE',  ( 3.000000000000002665, 0.000000000000000000, 25.39999999999999858 ) ) ;
#89 = CARTESIAN_POINT ( 'NONE',  ( 3.000000000000002665, 3.110602869834276865E-15, -25.39999999999999858 ) ) ;
#90 = DATE_AND_TIME ( #54, #87 ) ;
#91 = CALENDAR_DATE ( 2020, 24, 12 ) ;
#92 = VECTOR ( 'NONE', #142, 1000.000000000000000 ) ;
#93 = ADVANCED_FACE ( 'NONE', ( #36 ), #95, .T. ) ;
#94 = CARTESIAN_POINT ( 'NONE',  ( 3.000000000000002665, 0.000000000000000000, 0.000000000000000000 ) ) ;
#95 = CYLINDRICAL_SURFACE ( 'NONE', #113, 25.39999999999999858 ) ;
#96 = APPROVAL_STATUS ( 'not_yet_approved' ) ;
#97 = DIRECTION ( 'NONE',  ( 0.000000000000000000, 0.000000000000000000, 1.000000000000000000 ) ) ;
#98 =( NAMED_UNIT ( * ) SI_UNIT ( $, .STERADIAN. ) SOLID_ANGLE_UNIT ( ) );
#99 = VERTEX_POINT ( 'NONE', #89 ) ;
#100 = AXIS2_PLACEMENT_3D ( 'NONE', #43, #46, #97 ) ;
#101 = APPROVAL_ROLE ( '' ) ;
#102 = COORDINATED_UNIVERSAL_TIME_OFFSET ( 8, 0, .AHEAD. ) ;
#103 = LOCAL_TIME ( 9, 38, 25.00000000000000000, #29 ) ;
#104 = DATE_AND_TIME ( #91, #103 ) ;
#105 = CIRCLE ( 'NONE', #67, 25.39999999999999858 ) ;
#106 = EDGE_LOOP ( 'NONE', ( #149, #133, #144, #164 ) ) ;
#107 = CIRCLE ( 'NONE', #34, 25.39999999999999858 ) ;
#108 = APPROVAL ( #135, 'UNSPECIFIED' ) ;
#109 = VERTEX_POINT ( 'NONE', #129 ) ;
#110 = COORDINATED_UNIVERSAL_TIME_OFFSET ( 8, 0, .AHEAD. ) ;
#111 = DIRECTION ( 'NONE',  ( -0.000000000000000000, 0.000000000000000000, 1.000000000000000000 ) ) ;
#112 = VERTEX_POINT ( 'NONE', #143 ) ;
#113 = AXIS2_PLACEMENT_3D ( 'NONE', #130, #173, #9 ) ;
#114 = DIRECTION ( 'NONE',  ( -1.000000000000000000, -0.000000000000000000, -0.000000000000000000 ) ) ;
#115 = PRODUCT ( 'QB-CTZHWP-50.8-780-M', 'QB-CTZHWP-50.8-780-M', '', ( #157 ) ) ;
#116 = VERTEX_POINT ( 'NONE', #88 ) ;
#117 = CARTESIAN_POINT ( 'NONE',  ( -3.000000000000000000, 0.000000000000000000, 25.39999999999999858 ) ) ;
#118 = CARTESIAN_POINT ( 'NONE',  ( 3.000000000000001332, 25.39999999999999858, 0.000000000000000000 ) ) ;
#119 = DATE_TIME_ROLE ( 'creation_date' ) ;
#120 = CALENDAR_DATE ( 2020, 24, 12 ) ;
#121 = CC_DESIGN_PERSON_AND_ORGANIZATION_ASSIGNMENT ( #39, #15, ( #151 ) ) ;
#122 = DATE_AND_TIME ( #72, #4 ) ;
#123 = APPROVAL_PERSON_ORGANIZATION ( #51, #83, #101 ) ;
#124 = ORIENTED_EDGE ( 'NONE', *, *, #5, .F. ) ;
#125 = CC_DESIGN_SECURITY_CLASSIFICATION ( #151, ( #8 ) ) ;
#126 = DESIGN_CONTEXT ( 'detailed design', #6, 'design' ) ;
#127 = CARTESIAN_POINT ( 'NONE',  ( -3.000000000000001332, 25.39999999999999858, 0.000000000000000000 ) ) ;
#128 = ORIENTED_EDGE ( 'NONE', *, *, #71, .F. ) ;
#129 = CARTESIAN_POINT ( 'NONE',  ( -3.000000000000002665, 0.000000000000000000, 25.39999999999999858 ) ) ;
#130 = CARTESIAN_POINT ( 'NONE',  ( -3.000000000000000000, 0.000000000000000000, 0.000000000000000000 ) ) ;
#131 = CC_DESIGN_PERSON_AND_ORGANIZATION_ASSIGNMENT ( #17, #69, ( #139 ) ) ;
#132 = DIRECTION ( 'NONE',  ( 1.000000000000000000, 0.000000000000000000, 0.000000000000000000 ) ) ;
#133 = ORIENTED_EDGE ( 'NONE', *, *, #5, .T. ) ;
#134 = APPLICATION_PROTOCOL_DEFINITION ( 'international standard', 'config_control_design', 1994, #6 ) ;
#135 = APPROVAL_STATUS ( 'not_yet_approved' ) ;
#136 = UNCERTAINTY_MEASURE_WITH_UNIT (LENGTH_MEASURE( 1.000000000000000082E-05 ), #77, 'distance_accuracy_value', 'NONE');
#137 = ADVANCED_FACE ( 'NONE', ( #49 ), #145, .T. ) ;
#138 = AXIS2_PLACEMENT_3D ( 'NONE', #26, #44, #78 ) ;
#139 = PRODUCT_DEFINITION ( 'UNKNOWN', '', #8, #126 ) ;
#140 = APPROVAL_PERSON_ORGANIZATION ( #148, #108, #175 ) ;
#141 = EDGE_CURVE ( 'NONE', #112, #109, #105, .T. ) ;
#142 = DIRECTION ( 'NONE',  ( -1.000000000000000000, -0.000000000000000000, -0.000000000000000000 ) ) ;
#143 = CARTESIAN_POINT ( 'NONE',  ( -3.000000000000002665, 3.110602869834276865E-15, -25.39999999999999858 ) ) ;
#144 = ORIENTED_EDGE ( 'NONE', *, *, #71, .T. ) ;
#145 = CYLINDRICAL_SURFACE ( 'NONE', #14, 25.39999999999999858 ) ;
#146 = CARTESIAN_POINT ( 'NONE',  ( -3.000000000000002665, 0.000000000000000000, 0.000000000000000000 ) ) ;
#147 = FACE_OUTER_BOUND ( 'NONE', #168, .T. ) ;
#148 = PERSON_AND_ORGANIZATION ( #60, #41 ) ;
#149 = ORIENTED_EDGE ( 'NONE', *, *, #66, .F. ) ;
#150 = APPROVAL_PERSON_ORGANIZATION ( #12, #21, #75 ) ;
#151 = SECURITY_CLASSIFICATION ( '', '', #65 ) ;
#152 = AXIS2_PLACEMENT_3D ( 'NONE', #127, #132, #28 ) ;
#153 = DATE_AND_TIME ( #84, #42 ) ;
#154 = ORIENTED_EDGE ( 'NONE', *, *, #24, .T. ) ;
#155 = CARTESIAN_POINT ( 'NONE',  ( -3.000000000000000000, 3.110602869834276865E-15, -25.39999999999999858 ) ) ;
#156 = FACE_OUTER_BOUND ( 'NONE', #48, .T. ) ;
#157 = MECHANICAL_CONTEXT ( 'NONE', #171, 'mechanical' ) ;
#158 = DATE_TIME_ROLE ( 'classification_date' ) ;
#159 = PRODUCT_RELATED_PRODUCT_CATEGORY ( 'detail', '', ( #115 ) ) ;
#160 = AXIS2_PLACEMENT_3D ( 'NONE', #118, #37, #111 ) ;
#161 = APPROVAL_DATE_TIME ( #19, #83 ) ;
#162 = ADVANCED_FACE ( 'NONE', ( #147 ), #47, .F. ) ;
#163 = DIRECTION ( 'NONE',  ( -1.000000000000000000, -0.000000000000000000, -0.000000000000000000 ) ) ;
#164 = ORIENTED_EDGE ( 'NONE', *, *, #141, .F. ) ;
#165 = VECTOR ( 'NONE', #163, 1000.000000000000000 ) ;
#166 = ORIENTED_EDGE ( 'NONE', *, *, #1, .T. ) ;
#167 = DIRECTION ( 'NONE',  ( 0.000000000000000000, 0.000000000000000000, 1.000000000000000000 ) ) ;
#168 = EDGE_LOOP ( 'NONE', ( #154, #86 ) ) ;
#169 = APPLICATION_PROTOCOL_DEFINITION ( 'international standard', 'config_control_design', 1994, #171 ) ;
#170 = CC_DESIGN_DATE_AND_TIME_ASSIGNMENT ( #90, #158, ( #151 ) ) ;
#171 = APPLICATION_CONTEXT ( 'configuration controlled 3d designs of mechanical parts and assemblies' ) ;
#172 = PLANE ( 'NONE',  #160 ) ;
#173 = DIRECTION ( 'NONE',  ( -1.000000000000000000, -0.000000000000000000, -0.000000000000000000 ) ) ;
#174 = COORDINATED_UNIVERSAL_TIME_OFFSET ( 8, 0, .AHEAD. ) ;
#175 = APPROVAL_ROLE ( '' ) ;
ENDSEC;
END-ISO-10303-21;
